ISO-10303-21;
HEADER;
FILE_DESCRIPTION (( 'STEP AP214' ),
    '1' );
FILE_NAME ('GCC-411122.STEP',
    '2020-02-15T10:10:56',
    ( 'China' ),
    ( 'Microsoft' ),
    'SwSTEP 2.0',
    'SolidWorks 2018',
    '' );
FILE_SCHEMA (( 'AUTOMOTIVE_DESIGN' ));
ENDSEC;

DATA;
#1 = VECTOR ( 'NONE', #234, 1000.000000000000000 ) ;
#2 = ADVANCED_FACE ( 'NONE', ( #20 ), #41, .T. ) ;
#3 = EDGE_CURVE ( 'NONE', #214, #230, #73, .T. ) ;
#4 = SURFACE_SIDE_STYLE ('',( #55 ) ) ;
#5 = ORIENTED_EDGE ( 'NONE', *, *, #216, .F. ) ;
#6 = CARTESIAN_POINT ( 'NONE',  ( 0.0000000000000000000, 0.0000000000000000000, 0.2999999999999981570 ) ) ;
#7 =( NAMED_UNIT ( * ) SI_UNIT ( $, .STERADIAN. ) SOLID_ANGLE_UNIT ( ) );
#8 = CONICAL_SURFACE ( 'NONE', #211, 12.69999999999999929, 0.7853981633974511656 ) ;
#9 = VERTEX_POINT ( 'NONE', #188 ) ;
#10 =( GEOMETRIC_REPRESENTATION_CONTEXT ( 3 ) GLOBAL_UNCERTAINTY_ASSIGNED_CONTEXT ( ( #182 ) ) GLOBAL_UNIT_ASSIGNED_CONTEXT ( ( #196, #179, #127 ) ) REPRESENTATION_CONTEXT ( 'NONE', 'WORKASPACE' ) );
#11 = DIRECTION ( 'NONE',  ( 1.000000000000000000, 0.0000000000000000000, 0.0000000000000000000 ) ) ;
#12 = CARTESIAN_POINT ( 'NONE',  ( 0.0000000000000000000, 0.0000000000000000000, 2.699999999999994849 ) ) ;
#13 = COLOUR_RGB ( '',0.9411764705882352811, 0.9607843137254902244, 0.9686274509803921573 ) ;
#14 = DIRECTION ( 'NONE',  ( 0.0000000000000000000, 0.0000000000000000000, -1.000000000000000000 ) ) ;
#15 = EDGE_CURVE ( 'NONE', #144, #180, #65, .T. ) ;
#16 = FACE_OUTER_BOUND ( 'NONE', #67, .T. ) ;
#17 = ORIENTED_EDGE ( 'NONE', *, *, #137, .F. ) ;
#18 = SURFACE_STYLE_USAGE ( .BOTH. , #57 ) ;
#19 = ADVANCED_FACE ( 'NONE', ( #16 ), #202, .T. ) ;
#20 = FACE_OUTER_BOUND ( 'NONE', #135, .T. ) ;
#21 = EDGE_LOOP ( 'NONE', ( #169, #26, #46, #191 ) ) ;
#22 = CONICAL_SURFACE ( 'NONE', #111, 12.69999999999999929, 0.7853981633974511656 ) ;
#23 = DIRECTION ( 'NONE',  ( -0.0000000000000000000, -0.0000000000000000000, -1.000000000000000000 ) ) ;
#24 = FILL_AREA_STYLE_COLOUR ( '', #13 ) ;
#25 = SURFACE_STYLE_FILL_AREA ( #59 ) ;
#26 = ORIENTED_EDGE ( 'NONE', *, *, #220, .T. ) ;
#27 = DIRECTION ( 'NONE',  ( 0.0000000000000000000, 0.0000000000000000000, 1.000000000000000000 ) ) ;
#28 = CARTESIAN_POINT ( 'NONE',  ( 0.0000000000000000000, 0.0000000000000000000, 3.000000000000000000 ) ) ;
#29 = CARTESIAN_POINT ( 'NONE',  ( -12.69999999999999929, 0.0000000000000000000, 2.699999999999994849 ) ) ;
#30 = FACE_OUTER_BOUND ( 'NONE', #118, .T. ) ;
#31 = AXIS2_PLACEMENT_3D ( 'NONE', #227, #27, #175 ) ;
#32 = DIRECTION ( 'NONE',  ( 1.000000000000000000, 0.0000000000000000000, 0.0000000000000000000 ) ) ;
#33 = DIRECTION ( 'NONE',  ( -0.0000000000000000000, -0.0000000000000000000, -1.000000000000000000 ) ) ;
#34 = APPLICATION_CONTEXT ( 'automotive_design' ) ;
#35 = CIRCLE ( 'NONE', #131, 12.39999999999999325 ) ;
#36 = ORIENTED_EDGE ( 'NONE', *, *, #197, .F. ) ;
#37 = DIRECTION ( 'NONE',  ( 1.000000000000000000, 0.0000000000000000000, 0.0000000000000000000 ) ) ;
#38 = EDGE_CURVE ( 'NONE', #58, #90, #157, .T. ) ;
#39 = ORIENTED_EDGE ( 'NONE', *, *, #38, .T. ) ;
#40 = ORIENTED_EDGE ( 'NONE', *, *, #224, .T. ) ;
#41 = PLANE ( 'NONE',  #184 ) ;
#42 = PRODUCT ( 'GCC-411122', 'GCC-411122', '', ( #96 ) ) ;
#43 = MECHANICAL_DESIGN_GEOMETRIC_PRESENTATION_REPRESENTATION (  '', ( #177 ), #181 ) ;
#44 = DIRECTION ( 'NONE',  ( -0.0000000000000000000, -0.0000000000000000000, 1.000000000000000000 ) ) ;
#45 =( NAMED_UNIT ( * ) PLANE_ANGLE_UNIT ( ) SI_UNIT ( $, .RADIAN. ) );
#46 = ORIENTED_EDGE ( 'NONE', *, *, #3, .T. ) ;
#47 = CLOSED_SHELL ( 'NONE', ( #167, #100, #19, #218, #2, #63, #62, #64 ) ) ;
#48 = CARTESIAN_POINT ( 'NONE',  ( 12.39999999999999325, 1.518562030942716784E-15, 3.000000000000000000 ) ) ;
#49 = PLANE ( 'NONE',  #31 ) ;
#50 = CIRCLE ( 'NONE', #115, 12.69999999999999929 ) ;
#51 = DIRECTION ( 'NONE',  ( 0.0000000000000000000, 0.0000000000000000000, -1.000000000000000000 ) ) ;
#52 = CARTESIAN_POINT ( 'NONE',  ( -12.39999999999999325, 0.0000000000000000000, 3.000000000000000000 ) ) ;
#53 = CARTESIAN_POINT ( 'NONE',  ( 0.0000000000000000000, 0.0000000000000000000, 0.2999999999999981570 ) ) ;
#54 = CIRCLE ( 'NONE', #94, 12.69999999999999929 ) ;
#55 = SURFACE_STYLE_FILL_AREA ( #189 ) ;
#56 = AXIS2_PLACEMENT_3D ( 'NONE', #228, #173, #154 ) ;
#57 = SURFACE_SIDE_STYLE ('',( #25 ) ) ;
#58 = VERTEX_POINT ( 'NONE', #109 ) ;
#59 = FILL_AREA_STYLE ('',( #161 ) ) ;
#60 = PRESENTATION_LAYER_ASSIGNMENT (  '', '', ( #207 ) ) ;
#61 = ADVANCED_BREP_SHAPE_REPRESENTATION ( 'GCC-411122', ( #69, #88 ), #108 ) ;
#62 = ADVANCED_FACE ( 'NONE', ( #198 ), #22, .T. ) ;
#63 = ADVANCED_FACE ( 'NONE', ( #221 ), #49, .F. ) ;
#64 = ADVANCED_FACE ( 'NONE', ( #123 ), #76, .T. ) ;
#65 = CIRCLE ( 'NONE', #160, 12.40000000000000036 ) ;
#66 = CARTESIAN_POINT ( 'NONE',  ( 0.0000000000000000000, 0.0000000000000000000, 3.000000000000000000 ) ) ;
#67 = EDGE_LOOP ( 'NONE', ( #240, #105, #174, #68 ) ) ;
#68 = ORIENTED_EDGE ( 'NONE', *, *, #3, .F. ) ;
#69 = MANIFOLD_SOLID_BREP ( 'µ¹½Ç1', #47 ) ;
#70 = AXIS2_PLACEMENT_3D ( 'NONE', #53, #110, #122 ) ;
#71 = CARTESIAN_POINT ( 'NONE',  ( 12.69999999999999929, 1.555301434917138433E-15, 2.699999999999994849 ) ) ;
#72 = AXIS2_PLACEMENT_3D ( 'NONE', #12, #141, #32 ) ;
#73 = LINE ( 'NONE', #172, #104 ) ;
#74 = EDGE_LOOP ( 'NONE', ( #148, #158, #213, #236 ) ) ;
#75 = EDGE_CURVE ( 'NONE', #144, #9, #166, .T. ) ;
#76 = CONICAL_SURFACE ( 'NONE', #56, 12.39999999999999325, 0.7853981633974511656 ) ;
#77 = DIRECTION ( 'NONE',  ( 1.000000000000000000, 0.0000000000000000000, 0.0000000000000000000 ) ) ;
#78 = APPLICATION_CONTEXT ( 'automotive_design' ) ;
#79 = VECTOR ( 'NONE', #33, 1000.000000000000000 ) ;
#80 = ORIENTED_EDGE ( 'NONE', *, *, #38, .F. ) ;
#81 = ORIENTED_EDGE ( 'NONE', *, *, #220, .F. ) ;
#82 = AXIS2_PLACEMENT_3D ( 'NONE', #142, #143, #92 ) ;
#83 = DIRECTION ( 'NONE',  ( 1.000000000000000000, 0.0000000000000000000, 0.0000000000000000000 ) ) ;
#84 =( LENGTH_UNIT ( ) NAMED_UNIT ( * ) SI_UNIT ( .MILLI., .METRE. ) );
#85 = CARTESIAN_POINT ( 'NONE',  ( 0.0000000000000000000, 0.0000000000000000000, 3.000000000000000000 ) ) ;
#86 = CARTESIAN_POINT ( 'NONE',  ( 12.69999999999999929, 0.0000000000000000000, 0.2999999999999981570 ) ) ;
#87 = SURFACE_STYLE_USAGE ( .BOTH. , #4 ) ;
#88 = AXIS2_PLACEMENT_3D ( 'NONE', #163, #238, #37 ) ;
#89 = DIRECTION ( 'NONE',  ( -0.0000000000000000000, -0.0000000000000000000, -1.000000000000000000 ) ) ;
#90 = VERTEX_POINT ( 'NONE', #71 ) ;
#91 =( NAMED_UNIT ( * ) PLANE_ANGLE_UNIT ( ) SI_UNIT ( $, .RADIAN. ) );
#92 = DIRECTION ( 'NONE',  ( 1.000000000000000000, 0.0000000000000000000, 0.0000000000000000000 ) ) ;
#93 =( LENGTH_UNIT ( ) NAMED_UNIT ( * ) SI_UNIT ( .MILLI., .METRE. ) );
#94 = AXIS2_PLACEMENT_3D ( 'NONE', #112, #231, #11 ) ;
#95 = CIRCLE ( 'NONE', #72, 12.69999999999999929 ) ;
#96 = PRODUCT_CONTEXT ( 'NONE', #34, 'mechanical' ) ;
#97 = AXIS2_PLACEMENT_3D ( 'NONE', #193, #89, #209 ) ;
#98 = EDGE_CURVE ( 'NONE', #130, #58, #146, .T. ) ;
#99 = EDGE_LOOP ( 'NONE', ( #80, #219, #226, #81 ) ) ;
#100 = ADVANCED_FACE ( 'NONE', ( #30 ), #8, .T. ) ;
#101 = PRODUCT_DEFINITION ( 'Î´Öª', '', #147, #113 ) ;
#102 = CARTESIAN_POINT ( 'NONE',  ( -12.69999999999999929, 1.555301434917138433E-15, 0.2999999999999981570 ) ) ;
#103 = FACE_OUTER_BOUND ( 'NONE', #126, .T. ) ;
#104 = VECTOR ( 'NONE', #185, 1000.000000000000000 ) ;
#105 = ORIENTED_EDGE ( 'NONE', *, *, #232, .T. ) ;
#106 = AXIS2_PLACEMENT_3D ( 'NONE', #138, #51, #229 ) ;
#107 = DIRECTION ( 'NONE',  ( -1.000000000000000000, 0.0000000000000000000, 0.0000000000000000000 ) ) ;
#108 =( GEOMETRIC_REPRESENTATION_CONTEXT ( 3 ) GLOBAL_UNCERTAINTY_ASSIGNED_CONTEXT ( ( #145 ) ) GLOBAL_UNIT_ASSIGNED_CONTEXT ( ( #93, #91, #212 ) ) REPRESENTATION_CONTEXT ( 'NONE', 'WORKASPACE' ) );
#109 = CARTESIAN_POINT ( 'NONE',  ( 12.39999999999999325, 1.536931732929927411E-15, 3.000000000000000000 ) ) ;
#110 = DIRECTION ( 'NONE',  ( -0.0000000000000000000, -0.0000000000000000000, 1.000000000000000000 ) ) ;
#111 = AXIS2_PLACEMENT_3D ( 'NONE', #6, #44, #133 ) ;
#112 = CARTESIAN_POINT ( 'NONE',  ( 0.0000000000000000000, 0.0000000000000000000, 0.2999999999999981570 ) ) ;
#113 = PRODUCT_DEFINITION_CONTEXT ( 'detailed design', #78, 'design' ) ;
#114 = VECTOR ( 'NONE', #206, 1000.000000000000000 ) ;
#115 = AXIS2_PLACEMENT_3D ( 'NONE', #210, #14, #176 ) ;
#116 = ORIENTED_EDGE ( 'NONE', *, *, #137, .T. ) ;
#117 = CONICAL_SURFACE ( 'NONE', #106, 12.39999999999999325, 0.7853981633974511656 ) ;
#118 = EDGE_LOOP ( 'NONE', ( #152, #205, #183, #120 ) ) ;
#119 = DIRECTION ( 'NONE',  ( 1.000000000000000000, 0.0000000000000000000, 0.0000000000000000000 ) ) ;
#120 = ORIENTED_EDGE ( 'NONE', *, *, #75, .F. ) ;
#121 = EDGE_CURVE ( 'NONE', #180, #230, #235, .T. ) ;
#122 = DIRECTION ( 'NONE',  ( 1.000000000000000000, 0.0000000000000000000, 0.0000000000000000000 ) ) ;
#123 = FACE_OUTER_BOUND ( 'NONE', #99, .T. ) ;
#124 = DIRECTION ( 'NONE',  ( 0.0000000000000000000, 0.0000000000000000000, 1.000000000000000000 ) ) ;
#125 = AXIS2_PLACEMENT_3D ( 'NONE', #28, #159, #83 ) ;
#126 = EDGE_LOOP ( 'NONE', ( #17, #39, #5, #36 ) ) ;
#127 =( NAMED_UNIT ( * ) SI_UNIT ( $, .STERADIAN. ) SOLID_ANGLE_UNIT ( ) );
#128 = PRESENTATION_STYLE_ASSIGNMENT (( #87 ) ) ;
#129 = EDGE_CURVE ( 'NONE', #230, #9, #54, .T. ) ;
#130 = VERTEX_POINT ( 'NONE', #225 ) ;
#131 = AXIS2_PLACEMENT_3D ( 'NONE', #208, #124, #77 ) ;
#132 = DIRECTION ( 'NONE',  ( -0.0000000000000000000, -0.0000000000000000000, -1.000000000000000000 ) ) ;
#133 = DIRECTION ( 'NONE',  ( 1.000000000000000000, 0.0000000000000000000, 0.0000000000000000000 ) ) ;
#134 = CYLINDRICAL_SURFACE ( 'NONE', #97, 12.69999999999999929 ) ;
#135 = EDGE_LOOP ( 'NONE', ( #237, #116 ) ) ;
#136 = CARTESIAN_POINT ( 'NONE',  ( 0.0000000000000000000, 0.0000000000000000000, 0.0000000000000000000 ) ) ;
#137 = EDGE_CURVE ( 'NONE', #58, #130, #35, .T. ) ;
#138 = CARTESIAN_POINT ( 'NONE',  ( 0.0000000000000000000, 0.0000000000000000000, 3.000000000000000000 ) ) ;
#139 = PRESENTATION_STYLE_ASSIGNMENT (( #18 ) ) ;
#140 = FACE_OUTER_BOUND ( 'NONE', #21, .T. ) ;
#141 = DIRECTION ( 'NONE',  ( 0.0000000000000000000, 0.0000000000000000000, -1.000000000000000000 ) ) ;
#142 = CARTESIAN_POINT ( 'NONE',  ( 0.0000000000000000000, 0.0000000000000000000, 0.0000000000000000000 ) ) ;
#143 = DIRECTION ( 'NONE',  ( -0.0000000000000000000, -0.0000000000000000000, -1.000000000000000000 ) ) ;
#144 = VERTEX_POINT ( 'NONE', #155 ) ;
#145 = UNCERTAINTY_MEASURE_WITH_UNIT (LENGTH_MEASURE( 1.000000000000000082E-05 ), #93, 'distance_accuracy_value', 'NONE');
#146 = CIRCLE ( 'NONE', #125, 12.39999999999999325 ) ;
#147 = PRODUCT_DEFINITION_FORMATION_WITH_SPECIFIED_SOURCE ( 'ÈÎºÎ', '', #42, .NOT_KNOWN. ) ;
#148 = ORIENTED_EDGE ( 'NONE', *, *, #121, .F. ) ;
#149 = PRODUCT_RELATED_PRODUCT_CATEGORY ( 'part', '', ( #42 ) ) ;
#150 = AXIS2_PLACEMENT_3D ( 'NONE', #85, #132, #107 ) ;
#151 = CIRCLE ( 'NONE', #82, 12.40000000000000036 ) ;
#152 = ORIENTED_EDGE ( 'NONE', *, *, #224, .F. ) ;
#153 = VECTOR ( 'NONE', #190, 1000.000000000000000 ) ;
#154 = DIRECTION ( 'NONE',  ( -1.000000000000000000, 0.0000000000000000000, 0.0000000000000000000 ) ) ;
#155 = CARTESIAN_POINT ( 'NONE',  ( 12.40000000000000036, 0.0000000000000000000, 0.0000000000000000000 ) ) ;
#156 = SHAPE_DEFINITION_REPRESENTATION ( #187, #61 ) ;
#157 = LINE ( 'NONE', #48, #114 ) ;
#158 = ORIENTED_EDGE ( 'NONE', *, *, #15, .F. ) ;
#159 = DIRECTION ( 'NONE',  ( 0.0000000000000000000, 0.0000000000000000000, 1.000000000000000000 ) ) ;
#160 = AXIS2_PLACEMENT_3D ( 'NONE', #136, #23, #119 ) ;
#161 = FILL_AREA_STYLE_COLOUR ( '', #165 ) ;
#162 = LINE ( 'NONE', #52, #1 ) ;
#163 = CARTESIAN_POINT ( 'NONE',  ( 0.0000000000000000000, 0.0000000000000000000, 0.0000000000000000000 ) ) ;
#164 = APPLICATION_PROTOCOL_DEFINITION ( 'draft international standard', 'automotive_design', 1998, #34 ) ;
#165 = COLOUR_RGB ( '',0.9411764705882352811, 0.9607843137254902244, 0.9686274509803921573 ) ;
#166 = LINE ( 'NONE', #86, #153 ) ;
#167 = ADVANCED_FACE ( 'NONE', ( #103 ), #117, .T. ) ;
#168 = EDGE_CURVE ( 'NONE', #9, #230, #217, .T. ) ;
#169 = ORIENTED_EDGE ( 'NONE', *, *, #232, .F. ) ;
#170 = LINE ( 'NONE', #194, #79 ) ;
#171 = DIRECTION ( 'NONE',  ( -0.7071067811865495711, 8.659560562354957510E-17, 0.7071067811865454633 ) ) ;
#172 = CARTESIAN_POINT ( 'NONE',  ( -12.69999999999999929, 0.0000000000000000000, 3.000000000000000000 ) ) ;
#173 = DIRECTION ( 'NONE',  ( 0.0000000000000000000, 0.0000000000000000000, -1.000000000000000000 ) ) ;
#174 = ORIENTED_EDGE ( 'NONE', *, *, #168, .T. ) ;
#175 = DIRECTION ( 'NONE',  ( 1.000000000000000000, 0.0000000000000000000, -0.0000000000000000000 ) ) ;
#176 = DIRECTION ( 'NONE',  ( 1.000000000000000000, 0.0000000000000000000, 0.0000000000000000000 ) ) ;
#177 = STYLED_ITEM ( 'NONE', ( #128 ), #69 ) ;
#178 = EDGE_LOOP ( 'NONE', ( #199, #40 ) ) ;
#179 =( NAMED_UNIT ( * ) PLANE_ANGLE_UNIT ( ) SI_UNIT ( $, .RADIAN. ) );
#180 = VERTEX_POINT ( 'NONE', #192 ) ;
#181 =( GEOMETRIC_REPRESENTATION_CONTEXT ( 3 ) GLOBAL_UNCERTAINTY_ASSIGNED_CONTEXT ( ( #222 ) ) GLOBAL_UNIT_ASSIGNED_CONTEXT ( ( #84, #45, #7 ) ) REPRESENTATION_CONTEXT ( 'NONE', 'WORKASPACE' ) );
#182 = UNCERTAINTY_MEASURE_WITH_UNIT (LENGTH_MEASURE( 1.000000000000000082E-05 ), #196, 'distance_accuracy_value', 'NONE');
#183 = ORIENTED_EDGE ( 'NONE', *, *, #168, .F. ) ;
#184 = AXIS2_PLACEMENT_3D ( 'NONE', #66, #200, #223 ) ;
#185 = DIRECTION ( 'NONE',  ( -0.0000000000000000000, -0.0000000000000000000, -1.000000000000000000 ) ) ;
#186 = PRESENTATION_LAYER_ASSIGNMENT (  '', '', ( #177 ) ) ;
#187 = PRODUCT_DEFINITION_SHAPE ( 'NONE', 'NONE',  #101 ) ;
#188 = CARTESIAN_POINT ( 'NONE',  ( 12.69999999999999929, 1.555301434917138433E-15, 0.2999999999999981570 ) ) ;
#189 = FILL_AREA_STYLE ('',( #24 ) ) ;
#190 = DIRECTION ( 'NONE',  ( 0.7071067811865495711, 0.0000000000000000000, 0.7071067811865454633 ) ) ;
#191 = ORIENTED_EDGE ( 'NONE', *, *, #129, .T. ) ;
#192 = CARTESIAN_POINT ( 'NONE',  ( -12.40000000000000036, 1.536931732929928200E-15, 0.0000000000000000000 ) ) ;
#193 = CARTESIAN_POINT ( 'NONE',  ( 0.0000000000000000000, 0.0000000000000000000, 3.000000000000000000 ) ) ;
#194 = CARTESIAN_POINT ( 'NONE',  ( 12.69999999999999929, 1.555301434917138433E-15, 3.000000000000000000 ) ) ;
#195 = VECTOR ( 'NONE', #171, 1000.000000000000000 ) ;
#196 =( LENGTH_UNIT ( ) NAMED_UNIT ( * ) SI_UNIT ( .MILLI., .METRE. ) );
#197 = EDGE_CURVE ( 'NONE', #130, #214, #162, .T. ) ;
#198 = FACE_OUTER_BOUND ( 'NONE', #74, .T. ) ;
#199 = ORIENTED_EDGE ( 'NONE', *, *, #15, .T. ) ;
#200 = DIRECTION ( 'NONE',  ( 0.0000000000000000000, 0.0000000000000000000, 1.000000000000000000 ) ) ;
#201 = DIRECTION ( 'NONE',  ( -0.0000000000000000000, -0.0000000000000000000, 1.000000000000000000 ) ) ;
#202 = CYLINDRICAL_SURFACE ( 'NONE', #150, 12.69999999999999929 ) ;
#203 = CARTESIAN_POINT ( 'NONE',  ( 0.0000000000000000000, 0.0000000000000000000, 0.2999999999999981570 ) ) ;
#204 = DIRECTION ( 'NONE',  ( 1.000000000000000000, 0.0000000000000000000, 0.0000000000000000000 ) ) ;
#205 = ORIENTED_EDGE ( 'NONE', *, *, #121, .T. ) ;
#206 = DIRECTION ( 'NONE',  ( 0.7071067811865495711, 8.659560562354956277E-17, -0.7071067811865454633 ) ) ;
#207 = STYLED_ITEM ( 'NONE', ( #139 ), #61 ) ;
#208 = CARTESIAN_POINT ( 'NONE',  ( 0.0000000000000000000, 0.0000000000000000000, 3.000000000000000000 ) ) ;
#209 = DIRECTION ( 'NONE',  ( -1.000000000000000000, 0.0000000000000000000, 0.0000000000000000000 ) ) ;
#210 = CARTESIAN_POINT ( 'NONE',  ( 0.0000000000000000000, 0.0000000000000000000, 2.699999999999994849 ) ) ;
#211 = AXIS2_PLACEMENT_3D ( 'NONE', #203, #201, #204 ) ;
#212 =( NAMED_UNIT ( * ) SI_UNIT ( $, .STERADIAN. ) SOLID_ANGLE_UNIT ( ) );
#213 = ORIENTED_EDGE ( 'NONE', *, *, #75, .T. ) ;
#214 = VERTEX_POINT ( 'NONE', #29 ) ;
#215 = APPLICATION_PROTOCOL_DEFINITION ( 'draft international standard', 'automotive_design', 1998, #78 ) ;
#216 = EDGE_CURVE ( 'NONE', #214, #90, #50, .T. ) ;
#217 = CIRCLE ( 'NONE', #70, 12.69999999999999929 ) ;
#218 = ADVANCED_FACE ( 'NONE', ( #140 ), #134, .T. ) ;
#219 = ORIENTED_EDGE ( 'NONE', *, *, #98, .F. ) ;
#220 = EDGE_CURVE ( 'NONE', #90, #214, #95, .T. ) ;
#221 = FACE_OUTER_BOUND ( 'NONE', #178, .T. ) ;
#222 = UNCERTAINTY_MEASURE_WITH_UNIT (LENGTH_MEASURE( 1.000000000000000082E-05 ), #84, 'distance_accuracy_value', 'NONE');
#223 = DIRECTION ( 'NONE',  ( 1.000000000000000000, 0.0000000000000000000, -0.0000000000000000000 ) ) ;
#224 = EDGE_CURVE ( 'NONE', #180, #144, #151, .T. ) ;
#225 = CARTESIAN_POINT ( 'NONE',  ( -12.39999999999999325, 0.0000000000000000000, 3.000000000000000000 ) ) ;
#226 = ORIENTED_EDGE ( 'NONE', *, *, #197, .T. ) ;
#227 = CARTESIAN_POINT ( 'NONE',  ( 0.0000000000000000000, 0.0000000000000000000, 0.0000000000000000000 ) ) ;
#228 = CARTESIAN_POINT ( 'NONE',  ( 0.0000000000000000000, 0.0000000000000000000, 3.000000000000000000 ) ) ;
#229 = DIRECTION ( 'NONE',  ( -1.000000000000000000, 0.0000000000000000000, 0.0000000000000000000 ) ) ;
#230 = VERTEX_POINT ( 'NONE', #233 ) ;
#231 = DIRECTION ( 'NONE',  ( -0.0000000000000000000, -0.0000000000000000000, 1.000000000000000000 ) ) ;
#232 = EDGE_CURVE ( 'NONE', #90, #9, #170, .T. ) ;
#233 = CARTESIAN_POINT ( 'NONE',  ( -12.69999999999999929, 0.0000000000000000000, 0.2999999999999981570 ) ) ;
#234 = DIRECTION ( 'NONE',  ( -0.7071067811865495711, 0.0000000000000000000, -0.7071067811865454633 ) ) ;
#235 = LINE ( 'NONE', #102, #195 ) ;
#236 = ORIENTED_EDGE ( 'NONE', *, *, #129, .F. ) ;
#237 = ORIENTED_EDGE ( 'NONE', *, *, #98, .T. ) ;
#238 = DIRECTION ( 'NONE',  ( 0.0000000000000000000, 0.0000000000000000000, 1.000000000000000000 ) ) ;
#239 = MECHANICAL_DESIGN_GEOMETRIC_PRESENTATION_REPRESENTATION (  '', ( #207 ), #10 ) ;
#240 = ORIENTED_EDGE ( 'NONE', *, *, #216, .T. ) ;
ENDSEC;
END-ISO-10303-21;
